  0
SECTION
  2
HEADER
  9
$ACADVER
  1
AC1006
  0
ENDSEC
  0
SECTION
  2
TABLES
  0
TABLE
  2
LTYPE
 70
    25
  0
LTYPE
  2
CONTINUOUS
 70
    64
  3
Solid line
 72
    64
 73
     0
 40
0.000000
  0
LTYPE
  2
DASHDOT
 70
    64
  3
__ . __ . __ . __ . __ . __ . __ . __ . __ . __
 72
    65
 73
     4
 40
1.000000
 49
0.500000
 49
-0.250000
 49
0.000000
 49
-0.250000
  0
LTYPE
  2
DASHED
 70
    64
  3
__ __ __ __ __ __ __ __ __ __ __ __ __ __ __ __
 72
    65
 73
     2
 40
0.750000
 49
0.500000
 49
-0.250000
  0
LTYPE
  2
DIVIDE
 70
    64
  3
____ . . ____ . . ____ . . ____ . . ____ . . __
 72
    65
 73
     6
 40
1.250000
 49
0.500000
 49
-0.250000
 49
0.000000
 49
-0.250000
 49
0.000000
 49
-0.250000
  0
LTYPE
  2
DOT
 70
    64
  3
. . . . . . . . . . . . . . . . . . . . . . . . 
 72
    65
 73
     2
 40
0.250000
 49
0.000000
 49
-0.250000
  0
ENDTAB
  0
ENDSEC
  0
SECTION
  2
ENTITIES
  0
LINE
  8
Default
 62
     7
  6
CONTINUOUS
 10
0.000000
 20
0.000000
 30
0.000000
 11
36.000000
 21
0.000000
 31
0.000000
  0
LINE
  8
Default
 62
     7
  6
CONTINUOUS
 10
0.000000
 20
0.000000
 30
0.000000
 11
0.000000
 21
-24.000000
 31
0.000000
  0
LINE
  8
Default
 62
     7
  6
CONTINUOUS
 10
0.000000
 20
-24.000000
 30
0.000000
 11
36.000000
 21
-24.000000
 31
0.000000
  0
LINE
  8
Default
 62
     7
  6
CONTINUOUS
 10
36.000000
 20
0.000000
 30
0.000000
 11
36.000000
 21
-24.000000
 31
0.000000
  0
POINT
  8
Default
 62
     7
 10
0.563000
 20
-1.000000
 30
0.000000
  0
POINT
  8
Default
 62
     7
 10
12.563000
 20
-1.000000
 30
0.000000
  0
POINT
  8
Default
 62
     7
 10
24.563000
 20
-1.000000
 30
0.000000
  0
POINT
  8
Default
 62
     7
 10
35.438000
 20
-1.000000
 30
0.000000
  0
POINT
  8
Default
 62
     7
 10
35.438000
 20
-23.000000
 30
0.000000
  0
POINT
  8
Default
 62
     7
 10
24.563000
 20
-23.000000
 30
0.000000
  0
POINT
  8
Default
 62
     7
 10
12.563000
 20
-23.000000
 30
0.000000
  0
POINT
  8
Default
 62
     7
 10
0.563000
 20
-23.000000
 30
0.000000
  0
POINT
  8
Default
 62
     7
 10
0.625000
 20
-23.000000
 30
0.000000
  0
POINT
  8
Default
 62
     7
 10
24.625000
 20
-23.000000
 30
0.000000
  0
POINT
  8
Default
 62
     7
 10
35.375000
 20
-23.000000
 30
0.000000
  0
POINT
  8
Default
 62
     7
 10
0.625000
 20
-1.000000
 30
0.000000
  0
POINT
  8
Default
 62
     7
 10
12.625000
 20
-1.000000
 30
0.000000
  0
POINT
  8
Default
 62
     7
 10
24.625000
 20
-1.000000
 30
0.000000
  0
POINT
  8
Default
 62
     7
 10
35.375000
 20
-1.000000
 30
0.000000
  0
POINT
  8
Default
 62
     7
 10
0.500000
 20
-0.250000
 30
0.000000
  0
POINT
  8
Default
 62
     7
 10
5.500000
 20
-0.250000
 30
0.000000
  0
POINT
  8
Default
 62
     7
 10
10.500000
 20
-0.250000
 30
0.000000
  0
POINT
  8
Default
 62
     7
 10
15.500000
 20
-0.250000
 30
0.000000
  0
POINT
  8
Default
 62
     7
 10
20.500000
 20
-0.250000
 30
0.000000
  0
POINT
  8
Default
 62
     7
 10
25.500000
 20
-0.250000
 30
0.000000
  0
POINT
  8
Default
 62
     7
 10
30.500000
 20
-0.250000
 30
0.000000
  0
POINT
  8
Default
 62
     7
 10
35.500000
 20
-0.250000
 30
0.000000
  0
POINT
  8
Default
 62
     7
 10
35.500000
 20
-0.250000
 30
0.000000
  0
POINT
  8
Default
 62
     7
 10
0.500000
 20
-23.750000
 30
0.000000
  0
POINT
  8
Default
 62
     7
 10
5.500000
 20
-23.750000
 30
0.000000
  0
POINT
  8
Default
 62
     7
 10
10.500000
 20
-23.750000
 30
0.000000
  0
POINT
  8
Default
 62
     7
 10
15.500000
 20
-23.750000
 30
0.000000
  0
POINT
  8
Default
 62
     7
 10
20.500000
 20
-23.750000
 30
0.000000
  0
POINT
  8
Default
 62
     7
 10
25.500000
 20
-23.750000
 30
0.000000
  0
POINT
  8
Default
 62
     7
 10
30.500000
 20
-23.750000
 30
0.000000
  0
POINT
  8
Default
 62
     7
 10
35.500000
 20
-23.750000
 30
0.000000
  0
POINT
  8
Default
 62
     7
 10
35.500000
 20
-23.750000
 30
0.000000
  0
POINT
  8
Default
 62
     7
 10
18.000000
 20
-12.000000
 30
0.000000
  0
POINT
  8
Default
 62
     7
 10
17.000000
 20
-12.000000
 30
0.000000
  0
POINT
  8
Default
 62
     7
 10
16.000000
 20
-12.000000
 30
0.000000
  0
POINT
  8
Default
 62
     7
 10
15.000000
 20
-12.000000
 30
0.000000
  0
POINT
  8
Default
 62
     7
 10
14.000000
 20
-12.000000
 30
0.000000
  0
POINT
  8
Default
 62
     7
 10
13.000000
 20
-12.000000
 30
0.000000
  0
POINT
  8
Default
 62
     7
 10
12.000000
 20
-12.000000
 30
0.000000
  0
POINT
  8
Default
 62
     7
 10
11.000000
 20
-12.000000
 30
0.000000
  0
POINT
  8
Default
 62
     7
 10
10.000000
 20
-12.000000
 30
0.000000
  0
POINT
  8
Default
 62
     7
 10
9.000000
 20
-12.000000
 30
0.000000
  0
POINT
  8
Default
 62
     7
 10
19.000000
 20
-12.000000
 30
0.000000
  0
POINT
  8
Default
 62
     7
 10
20.000000
 20
-12.000000
 30
0.000000
  0
POINT
  8
Default
 62
     7
 10
21.000000
 20
-12.000000
 30
0.000000
  0
POINT
  8
Default
 62
     7
 10
18.000000
 20
-11.000000
 30
0.000000
  0
POINT
  8
Default
 62
     7
 10
17.000000
 20
-11.000000
 30
0.000000
  0
POINT
  8
Default
 62
     7
 10
16.000000
 20
-11.000000
 30
0.000000
  0
POINT
  8
Default
 62
     7
 10
15.000000
 20
-11.000000
 30
0.000000
  0
POINT
  8
Default
 62
     7
 10
14.000000
 20
-11.000000
 30
0.000000
  0
POINT
  8
Default
 62
     7
 10
13.000000
 20
-11.000000
 30
0.000000
  0
POINT
  8
Default
 62
     7
 10
12.000000
 20
-11.000000
 30
0.000000
  0
POINT
  8
Default
 62
     7
 10
11.000000
 20
-11.000000
 30
0.000000
  0
POINT
  8
Default
 62
     7
 10
10.000000
 20
-11.000000
 30
0.000000
  0
POINT
  8
Default
 62
     7
 10
9.000000
 20
-11.000000
 30
0.000000
  0
POINT
  8
Default
 62
     7
 10
19.000000
 20
-11.000000
 30
0.000000
  0
POINT
  8
Default
 62
     7
 10
20.000000
 20
-11.000000
 30
0.000000
  0
POINT
  8
Default
 62
     7
 10
21.000000
 20
-11.000000
 30
0.000000
  0
POINT
  8
Default
 62
     7
 10
18.000000
 20
-10.000000
 30
0.000000
  0
POINT
  8
Default
 62
     7
 10
17.000000
 20
-10.000000
 30
0.000000
  0
POINT
  8
Default
 62
     7
 10
16.000000
 20
-10.000000
 30
0.000000
  0
POINT
  8
Default
 62
     7
 10
15.000000
 20
-10.000000
 30
0.000000
  0
POINT
  8
Default
 62
     7
 10
14.000000
 20
-10.000000
 30
0.000000
  0
POINT
  8
Default
 62
     7
 10
13.000000
 20
-10.000000
 30
0.000000
  0
POINT
  8
Default
 62
     7
 10
12.000000
 20
-10.000000
 30
0.000000
  0
POINT
  8
Default
 62
     7
 10
11.000000
 20
-10.000000
 30
0.000000
  0
POINT
  8
Default
 62
     7
 10
10.000000
 20
-10.000000
 30
0.000000
  0
POINT
  8
Default
 62
     7
 10
9.000000
 20
-10.000000
 30
0.000000
  0
POINT
  8
Default
 62
     7
 10
19.000000
 20
-10.000000
 30
0.000000
  0
POINT
  8
Default
 62
     7
 10
20.000000
 20
-10.000000
 30
0.000000
  0
POINT
  8
Default
 62
     7
 10
21.000000
 20
-10.000000
 30
0.000000
  0
POINT
  8
Default
 62
     7
 10
18.000000
 20
-9.000000
 30
0.000000
  0
POINT
  8
Default
 62
     7
 10
17.000000
 20
-9.000000
 30
0.000000
  0
POINT
  8
Default
 62
     7
 10
16.000000
 20
-9.000000
 30
0.000000
  0
POINT
  8
Default
 62
     7
 10
15.000000
 20
-9.000000
 30
0.000000
  0
POINT
  8
Default
 62
     7
 10
14.000000
 20
-9.000000
 30
0.000000
  0
POINT
  8
Default
 62
     7
 10
13.000000
 20
-9.000000
 30
0.000000
  0
POINT
  8
Default
 62
     7
 10
12.000000
 20
-9.000000
 30
0.000000
  0
POINT
  8
Default
 62
     7
 10
11.000000
 20
-9.000000
 30
0.000000
  0
POINT
  8
Default
 62
     7
 10
9.000000
 20
-9.000000
 30
0.000000
  0
POINT
  8
Default
 62
     7
 10
19.000000
 20
-9.000000
 30
0.000000
  0
POINT
  8
Default
 62
     7
 10
20.000000
 20
-9.000000
 30
0.000000
  0
POINT
  8
Default
 62
     7
 10
21.000000
 20
-9.000000
 30
0.000000
  0
POINT
  8
Default
 62
     7
 10
18.000000
 20
-8.000000
 30
0.000000
  0
POINT
  8
Default
 62
     7
 10
17.000000
 20
-8.000000
 30
0.000000
  0
POINT
  8
Default
 62
     7
 10
16.000000
 20
-8.000000
 30
0.000000
  0
POINT
  8
Default
 62
     7
 10
15.000000
 20
-8.000000
 30
0.000000
  0
POINT
  8
Default
 62
     7
 10
14.000000
 20
-8.000000
 30
0.000000
  0
POINT
  8
Default
 62
     7
 10
13.000000
 20
-8.000000
 30
0.000000
  0
POINT
  8
Default
 62
     7
 10
12.000000
 20
-8.000000
 30
0.000000
  0
POINT
  8
Default
 62
     7
 10
11.000000
 20
-8.000000
 30
0.000000
  0
POINT
  8
Default
 62
     7
 10
10.000000
 20
-8.000000
 30
0.000000
  0
POINT
  8
Default
 62
     7
 10
9.000000
 20
-8.000000
 30
0.000000
  0
POINT
  8
Default
 62
     7
 10
19.000000
 20
-8.000000
 30
0.000000
  0
POINT
  8
Default
 62
     7
 10
20.000000
 20
-8.000000
 30
0.000000
  0
POINT
  8
Default
 62
     7
 10
21.000000
 20
-8.000000
 30
0.000000
  0
POINT
  8
Default
 62
     7
 10
18.000000
 20
-13.000000
 30
0.000000
  0
POINT
  8
Default
 62
     7
 10
17.000000
 20
-13.000000
 30
0.000000
  0
POINT
  8
Default
 62
     7
 10
16.000000
 20
-13.000000
 30
0.000000
  0
POINT
  8
Default
 62
     7
 10
15.000000
 20
-13.000000
 30
0.000000
  0
POINT
  8
Default
 62
     7
 10
14.000000
 20
-13.000000
 30
0.000000
  0
POINT
  8
Default
 62
     7
 10
13.000000
 20
-13.000000
 30
0.000000
  0
POINT
  8
Default
 62
     7
 10
12.000000
 20
-13.000000
 30
0.000000
  0
POINT
  8
Default
 62
     7
 10
11.000000
 20
-13.000000
 30
0.000000
  0
POINT
  8
Default
 62
     7
 10
10.000000
 20
-13.000000
 30
0.000000
  0
POINT
  8
Default
 62
     7
 10
9.000000
 20
-13.000000
 30
0.000000
  0
POINT
  8
Default
 62
     7
 10
19.000000
 20
-13.000000
 30
0.000000
  0
POINT
  8
Default
 62
     7
 10
20.000000
 20
-13.000000
 30
0.000000
  0
POINT
  8
Default
 62
     7
 10
18.000000
 20
-14.000000
 30
0.000000
  0
POINT
  8
Default
 62
     7
 10
17.000000
 20
-14.000000
 30
0.000000
  0
POINT
  8
Default
 62
     7
 10
16.000000
 20
-14.000000
 30
0.000000
  0
POINT
  8
Default
 62
     7
 10
15.000000
 20
-14.000000
 30
0.000000
  0
POINT
  8
Default
 62
     7
 10
14.000000
 20
-14.000000
 30
0.000000
  0
POINT
  8
Default
 62
     7
 10
13.000000
 20
-14.000000
 30
0.000000
  0
POINT
  8
Default
 62
     7
 10
12.000000
 20
-14.000000
 30
0.000000
  0
POINT
  8
Default
 62
     7
 10
11.000000
 20
-14.000000
 30
0.000000
  0
POINT
  8
Default
 62
     7
 10
10.000000
 20
-14.000000
 30
0.000000
  0
POINT
  8
Default
 62
     7
 10
9.000000
 20
-14.000000
 30
0.000000
  0
POINT
  8
Default
 62
     7
 10
19.000000
 20
-14.000000
 30
0.000000
  0
POINT
  8
Default
 62
     7
 10
20.000000
 20
-14.000000
 30
0.000000
  0
POINT
  8
Default
 62
     7
 10
21.000000
 20
-14.000000
 30
0.000000
  0
POINT
  8
Default
 62
     7
 10
18.000000
 20
-15.000000
 30
0.000000
  0
POINT
  8
Default
 62
     7
 10
17.000000
 20
-15.000000
 30
0.000000
  0
POINT
  8
Default
 62
     7
 10
16.000000
 20
-15.000000
 30
0.000000
  0
POINT
  8
Default
 62
     7
 10
15.000000
 20
-15.000000
 30
0.000000
  0
POINT
  8
Default
 62
     7
 10
14.000000
 20
-15.000000
 30
0.000000
  0
POINT
  8
Default
 62
     7
 10
13.000000
 20
-15.000000
 30
0.000000
  0
POINT
  8
Default
 62
     7
 10
12.000000
 20
-15.000000
 30
0.000000
  0
POINT
  8
Default
 62
     7
 10
11.000000
 20
-15.000000
 30
0.000000
  0
POINT
  8
Default
 62
     7
 10
10.000000
 20
-15.000000
 30
0.000000
  0
POINT
  8
Default
 62
     7
 10
9.000000
 20
-15.000000
 30
0.000000
  0
POINT
  8
Default
 62
     7
 10
20.000000
 20
-15.000000
 30
0.000000
  0
POINT
  8
Default
 62
     7
 10
21.000000
 20
-15.000000
 30
0.000000
  0
POINT
  8
Default
 62
     7
 10
18.000000
 20
-16.000000
 30
0.000000
  0
POINT
  8
Default
 62
     7
 10
17.000000
 20
-16.000000
 30
0.000000
  0
POINT
  8
Default
 62
     7
 10
16.000000
 20
-16.000000
 30
0.000000
  0
POINT
  8
Default
 62
     7
 10
15.000000
 20
-16.000000
 30
0.000000
  0
POINT
  8
Default
 62
     7
 10
14.000000
 20
-16.000000
 30
0.000000
  0
POINT
  8
Default
 62
     7
 10
13.000000
 20
-16.000000
 30
0.000000
  0
POINT
  8
Default
 62
     7
 10
12.000000
 20
-16.000000
 30
0.000000
  0
POINT
  8
Default
 62
     7
 10
11.000000
 20
-16.000000
 30
0.000000
  0
POINT
  8
Default
 62
     7
 10
9.000000
 20
-16.000000
 30
0.000000
  0
POINT
  8
Default
 62
     7
 10
19.000000
 20
-16.000000
 30
0.000000
  0
POINT
  8
Default
 62
     7
 10
20.000000
 20
-16.000000
 30
0.000000
  0
POINT
  8
Default
 62
     7
 10
21.000000
 20
-16.000000
 30
0.000000
  0
POINT
  8
Default
 62
     7
 10
7.000000
 20
-12.000000
 30
0.000000
  0
POINT
  8
Default
 62
     7
 10
5.000000
 20
-12.000000
 30
0.000000
  0
POINT
  8
Default
 62
     7
 10
3.000000
 20
-12.000000
 30
0.000000
  0
POINT
  8
Default
 62
     7
 10
1.000000
 20
-12.000000
 30
0.000000
  0
POINT
  8
Default
 62
     7
 10
7.000000
 20
-10.000000
 30
0.000000
  0
POINT
  8
Default
 62
     7
 10
5.000000
 20
-10.000000
 30
0.000000
  0
POINT
  8
Default
 62
     7
 10
3.000000
 20
-10.000000
 30
0.000000
  0
POINT
  8
Default
 62
     7
 10
1.000000
 20
-10.000000
 30
0.000000
  0
POINT
  8
Default
 62
     7
 10
7.000000
 20
-8.000000
 30
0.000000
  0
POINT
  8
Default
 62
     7
 10
5.000000
 20
-8.000000
 30
0.000000
  0
POINT
  8
Default
 62
     7
 10
3.000000
 20
-8.000000
 30
0.000000
  0
POINT
  8
Default
 62
     7
 10
1.000000
 20
-8.000000
 30
0.000000
  0
POINT
  8
Default
 62
     7
 10
7.000000
 20
-14.000000
 30
0.000000
  0
POINT
  8
Default
 62
     7
 10
5.000000
 20
-14.000000
 30
0.000000
  0
POINT
  8
Default
 62
     7
 10
3.000000
 20
-14.000000
 30
0.000000
  0
POINT
  8
Default
 62
     7
 10
1.000000
 20
-14.000000
 30
0.000000
  0
POINT
  8
Default
 62
     7
 10
7.000000
 20
-16.000000
 30
0.000000
  0
POINT
  8
Default
 62
     7
 10
5.000000
 20
-16.000000
 30
0.000000
  0
POINT
  8
Default
 62
     7
 10
3.000000
 20
-16.000000
 30
0.000000
  0
POINT
  8
Default
 62
     7
 10
1.000000
 20
-16.000000
 30
0.000000
  0
POINT
  8
Default
 62
     7
 10
7.000000
 20
-18.000000
 30
0.000000
  0
POINT
  8
Default
 62
     7
 10
7.000000
 20
-20.000000
 30
0.000000
  0
POINT
  8
Default
 62
     7
 10
7.000000
 20
-22.000000
 30
0.000000
  0
POINT
  8
Default
 62
     7
 10
5.000000
 20
-18.000000
 30
0.000000
  0
POINT
  8
Default
 62
     7
 10
5.000000
 20
-20.000000
 30
0.000000
  0
POINT
  8
Default
 62
     7
 10
5.000000
 20
-22.000000
 30
0.000000
  0
POINT
  8
Default
 62
     7
 10
3.000000
 20
-18.000000
 30
0.000000
  0
POINT
  8
Default
 62
     7
 10
3.000000
 20
-20.000000
 30
0.000000
  0
POINT
  8
Default
 62
     7
 10
3.000000
 20
-22.000000
 30
0.000000
  0
POINT
  8
Default
 62
     7
 10
1.000000
 20
-18.000000
 30
0.000000
  0
POINT
  8
Default
 62
     7
 10
1.000000
 20
-20.000000
 30
0.000000
  0
POINT
  8
Default
 62
     7
 10
1.000000
 20
-22.000000
 30
0.000000
  0
POINT
  8
Default
 62
     7
 10
9.000000
 20
-18.000000
 30
0.000000
  0
POINT
  8
Default
 62
     7
 10
9.000000
 20
-20.000000
 30
0.000000
  0
POINT
  8
Default
 62
     7
 10
9.000000
 20
-22.000000
 30
0.000000
  0
POINT
  8
Default
 62
     7
 10
11.000000
 20
-18.000000
 30
0.000000
  0
POINT
  8
Default
 62
     7
 10
11.000000
 20
-20.000000
 30
0.000000
  0
POINT
  8
Default
 62
     7
 10
11.000000
 20
-22.000000
 30
0.000000
  0
POINT
  8
Default
 62
     7
 10
13.000000
 20
-18.000000
 30
0.000000
  0
POINT
  8
Default
 62
     7
 10
13.000000
 20
-20.000000
 30
0.000000
  0
POINT
  8
Default
 62
     7
 10
13.000000
 20
-22.000000
 30
0.000000
  0
POINT
  8
Default
 62
     7
 10
15.000000
 20
-18.000000
 30
0.000000
  0
POINT
  8
Default
 62
     7
 10
15.000000
 20
-20.000000
 30
0.000000
  0
POINT
  8
Default
 62
     7
 10
15.000000
 20
-22.000000
 30
0.000000
  0
POINT
  8
Default
 62
     7
 10
17.000000
 20
-18.000000
 30
0.000000
  0
POINT
  8
Default
 62
     7
 10
17.000000
 20
-20.000000
 30
0.000000
  0
POINT
  8
Default
 62
     7
 10
17.000000
 20
-22.000000
 30
0.000000
  0
POINT
  8
Default
 62
     7
 10
19.000000
 20
-18.000000
 30
0.000000
  0
POINT
  8
Default
 62
     7
 10
19.000000
 20
-20.000000
 30
0.000000
  0
POINT
  8
Default
 62
     7
 10
19.000000
 20
-22.000000
 30
0.000000
  0
POINT
  8
Default
 62
     7
 10
21.000000
 20
-18.000000
 30
0.000000
  0
POINT
  8
Default
 62
     7
 10
21.000000
 20
-20.000000
 30
0.000000
  0
POINT
  8
Default
 62
     7
 10
21.000000
 20
-22.000000
 30
0.000000
  0
POINT
  8
Default
 62
     7
 10
23.000000
 20
-18.000000
 30
0.000000
  0
POINT
  8
Default
 62
     7
 10
23.000000
 20
-20.000000
 30
0.000000
  0
POINT
  8
Default
 62
     7
 10
23.000000
 20
-22.000000
 30
0.000000
  0
POINT
  8
Default
 62
     7
 10
25.000000
 20
-18.000000
 30
0.000000
  0
POINT
  8
Default
 62
     7
 10
25.000000
 20
-20.000000
 30
0.000000
  0
POINT
  8
Default
 62
     7
 10
25.000000
 20
-22.000000
 30
0.000000
  0
POINT
  8
Default
 62
     7
 10
27.000000
 20
-18.000000
 30
0.000000
  0
POINT
  8
Default
 62
     7
 10
27.000000
 20
-20.000000
 30
0.000000
  0
POINT
  8
Default
 62
     7
 10
27.000000
 20
-22.000000
 30
0.000000
  0
POINT
  8
Default
 62
     7
 10
29.000000
 20
-18.000000
 30
0.000000
  0
POINT
  8
Default
 62
     7
 10
29.000000
 20
-20.000000
 30
0.000000
  0
POINT
  8
Default
 62
     7
 10
29.000000
 20
-22.000000
 30
0.000000
  0
POINT
  8
Default
 62
     7
 10
31.000000
 20
-18.000000
 30
0.000000
  0
POINT
  8
Default
 62
     7
 10
31.000000
 20
-20.000000
 30
0.000000
  0
POINT
  8
Default
 62
     7
 10
31.000000
 20
-22.000000
 30
0.000000
  0
POINT
  8
Default
 62
     7
 10
33.000000
 20
-18.000000
 30
0.000000
  0
POINT
  8
Default
 62
     7
 10
33.000000
 20
-20.000000
 30
0.000000
  0
POINT
  8
Default
 62
     7
 10
33.000000
 20
-22.000000
 30
0.000000
  0
POINT
  8
Default
 62
     7
 10
35.000000
 20
-18.000000
 30
0.000000
  0
POINT
  8
Default
 62
     7
 10
35.000000
 20
-20.000000
 30
0.000000
  0
POINT
  8
Default
 62
     7
 10
35.000000
 20
-22.000000
 30
0.000000
  0
POINT
  8
Default
 62
     7
 10
23.000000
 20
-16.000000
 30
0.000000
  0
POINT
  8
Default
 62
     7
 10
25.000000
 20
-16.000000
 30
0.000000
  0
POINT
  8
Default
 62
     7
 10
27.000000
 20
-16.000000
 30
0.000000
  0
POINT
  8
Default
 62
     7
 10
29.000000
 20
-16.000000
 30
0.000000
  0
POINT
  8
Default
 62
     7
 10
31.000000
 20
-16.000000
 30
0.000000
  0
POINT
  8
Default
 62
     7
 10
33.000000
 20
-16.000000
 30
0.000000
  0
POINT
  8
Default
 62
     7
 10
35.000000
 20
-16.000000
 30
0.000000
  0
POINT
  8
Default
 62
     7
 10
23.000000
 20
-14.000000
 30
0.000000
  0
POINT
  8
Default
 62
     7
 10
25.000000
 20
-14.000000
 30
0.000000
  0
POINT
  8
Default
 62
     7
 10
27.000000
 20
-14.000000
 30
0.000000
  0
POINT
  8
Default
 62
     7
 10
29.000000
 20
-14.000000
 30
0.000000
  0
POINT
  8
Default
 62
     7
 10
31.000000
 20
-14.000000
 30
0.000000
  0
POINT
  8
Default
 62
     7
 10
33.000000
 20
-14.000000
 30
0.000000
  0
POINT
  8
Default
 62
     7
 10
35.000000
 20
-14.000000
 30
0.000000
  0
POINT
  8
Default
 62
     7
 10
23.000000
 20
-12.000000
 30
0.000000
  0
POINT
  8
Default
 62
     7
 10
25.000000
 20
-12.000000
 30
0.000000
  0
POINT
  8
Default
 62
     7
 10
27.000000
 20
-12.000000
 30
0.000000
  0
POINT
  8
Default
 62
     7
 10
29.000000
 20
-12.000000
 30
0.000000
  0
POINT
  8
Default
 62
     7
 10
31.000000
 20
-12.000000
 30
0.000000
  0
POINT
  8
Default
 62
     7
 10
33.000000
 20
-12.000000
 30
0.000000
  0
POINT
  8
Default
 62
     7
 10
35.000000
 20
-12.000000
 30
0.000000
  0
POINT
  8
Default
 62
     7
 10
23.000000
 20
-10.000000
 30
0.000000
  0
POINT
  8
Default
 62
     7
 10
25.000000
 20
-10.000000
 30
0.000000
  0
POINT
  8
Default
 62
     7
 10
27.000000
 20
-10.000000
 30
0.000000
  0
POINT
  8
Default
 62
     7
 10
29.000000
 20
-10.000000
 30
0.000000
  0
POINT
  8
Default
 62
     7
 10
31.000000
 20
-10.000000
 30
0.000000
  0
POINT
  8
Default
 62
     7
 10
33.000000
 20
-10.000000
 30
0.000000
  0
POINT
  8
Default
 62
     7
 10
35.000000
 20
-10.000000
 30
0.000000
  0
POINT
  8
Default
 62
     7
 10
23.000000
 20
-8.000000
 30
0.000000
  0
POINT
  8
Default
 62
     7
 10
25.000000
 20
-8.000000
 30
0.000000
  0
POINT
  8
Default
 62
     7
 10
27.000000
 20
-8.000000
 30
0.000000
  0
POINT
  8
Default
 62
     7
 10
29.000000
 20
-8.000000
 30
0.000000
  0
POINT
  8
Default
 62
     7
 10
31.000000
 20
-8.000000
 30
0.000000
  0
POINT
  8
Default
 62
     7
 10
33.000000
 20
-8.000000
 30
0.000000
  0
POINT
  8
Default
 62
     7
 10
35.000000
 20
-8.000000
 30
0.000000
  0
POINT
  8
Default
 62
     7
 10
23.000000
 20
-6.000000
 30
0.000000
  0
POINT
  8
Default
 62
     7
 10
25.000000
 20
-6.000000
 30
0.000000
  0
POINT
  8
Default
 62
     7
 10
27.000000
 20
-6.000000
 30
0.000000
  0
POINT
  8
Default
 62
     7
 10
29.000000
 20
-6.000000
 30
0.000000
  0
POINT
  8
Default
 62
     7
 10
31.000000
 20
-6.000000
 30
0.000000
  0
POINT
  8
Default
 62
     7
 10
33.000000
 20
-6.000000
 30
0.000000
  0
POINT
  8
Default
 62
     7
 10
35.000000
 20
-6.000000
 30
0.000000
  0
POINT
  8
Default
 62
     7
 10
23.000000
 20
-4.000000
 30
0.000000
  0
POINT
  8
Default
 62
     7
 10
25.000000
 20
-4.000000
 30
0.000000
  0
POINT
  8
Default
 62
     7
 10
27.000000
 20
-4.000000
 30
0.000000
  0
POINT
  8
Default
 62
     7
 10
31.000000
 20
-4.000000
 30
0.000000
  0
POINT
  8
Default
 62
     7
 10
33.000000
 20
-4.000000
 30
0.000000
  0
POINT
  8
Default
 62
     7
 10
35.000000
 20
-4.000000
 30
0.000000
  0
POINT
  8
Default
 62
     7
 10
23.000000
 20
-2.000000
 30
0.000000
  0
POINT
  8
Default
 62
     7
 10
25.000000
 20
-2.000000
 30
0.000000
  0
POINT
  8
Default
 62
     7
 10
27.000000
 20
-2.000000
 30
0.000000
  0
POINT
  8
Default
 62
     7
 10
29.000000
 20
-2.000000
 30
0.000000
  0
POINT
  8
Default
 62
     7
 10
31.000000
 20
-2.000000
 30
0.000000
  0
POINT
  8
Default
 62
     7
 10
33.000000
 20
-2.000000
 30
0.000000
  0
POINT
  8
Default
 62
     7
 10
35.000000
 20
-2.000000
 30
0.000000
  0
POINT
  8
Default
 62
     7
 10
21.000000
 20
-6.000000
 30
0.000000
  0
POINT
  8
Default
 62
     7
 10
21.000000
 20
-4.000000
 30
0.000000
  0
POINT
  8
Default
 62
     7
 10
21.000000
 20
-2.000000
 30
0.000000
  0
POINT
  8
Default
 62
     7
 10
19.000000
 20
-6.000000
 30
0.000000
  0
POINT
  8
Default
 62
     7
 10
19.000000
 20
-4.000000
 30
0.000000
  0
POINT
  8
Default
 62
     7
 10
19.000000
 20
-2.000000
 30
0.000000
  0
POINT
  8
Default
 62
     7
 10
17.000000
 20
-6.000000
 30
0.000000
  0
POINT
  8
Default
 62
     7
 10
17.000000
 20
-4.000000
 30
0.000000
  0
POINT
  8
Default
 62
     7
 10
17.000000
 20
-2.000000
 30
0.000000
  0
POINT
  8
Default
 62
     7
 10
15.000000
 20
-6.000000
 30
0.000000
  0
POINT
  8
Default
 62
     7
 10
15.000000
 20
-4.000000
 30
0.000000
  0
POINT
  8
Default
 62
     7
 10
15.000000
 20
-2.000000
 30
0.000000
  0
POINT
  8
Default
 62
     7
 10
13.000000
 20
-6.000000
 30
0.000000
  0
POINT
  8
Default
 62
     7
 10
13.000000
 20
-2.000000
 30
0.000000
  0
POINT
  8
Default
 62
     7
 10
11.000000
 20
-6.000000
 30
0.000000
  0
POINT
  8
Default
 62
     7
 10
11.000000
 20
-4.000000
 30
0.000000
  0
POINT
  8
Default
 62
     7
 10
11.000000
 20
-2.000000
 30
0.000000
  0
POINT
  8
Default
 62
     7
 10
9.000000
 20
-6.000000
 30
0.000000
  0
POINT
  8
Default
 62
     7
 10
9.000000
 20
-4.000000
 30
0.000000
  0
POINT
  8
Default
 62
     7
 10
9.000000
 20
-2.000000
 30
0.000000
  0
POINT
  8
Default
 62
     7
 10
7.000000
 20
-6.000000
 30
0.000000
  0
POINT
  8
Default
 62
     7
 10
7.000000
 20
-4.000000
 30
0.000000
  0
POINT
  8
Default
 62
     7
 10
5.000000
 20
-6.000000
 30
0.000000
  0
POINT
  8
Default
 62
     7
 10
5.000000
 20
-2.000000
 30
0.000000
  0
POINT
  8
Default
 62
     7
 10
3.000000
 20
-6.000000
 30
0.000000
  0
POINT
  8
Default
 62
     7
 10
3.000000
 20
-4.000000
 30
0.000000
  0
POINT
  8
Default
 62
     7
 10
7.000000
 20
-2.000000
 30
0.000000
  0
POINT
  8
Default
 62
     7
 10
1.000000
 20
-6.000000
 30
0.000000
  0
POINT
  8
Default
 62
     7
 10
1.000000
 20
-4.000000
 30
0.000000
  0
POINT
  8
Default
 62
     7
 10
1.000000
 20
-2.000000
 30
0.000000
  0
POINT
  8
Default
 62
     7
 10
19.000000
 20
-15.000000
 30
0.000000
  0
POINT
  8
Default
 62
     7
 10
21.000000
 20
-13.000000
 30
0.000000
  0
POINT
  8
Default
 62
     7
 10
3.000000
 20
-2.000000
 30
0.000000
  0
ARC
  8
Default
 62
     7
  6
CONTINUOUS
 10
35.000000
 20
-14.000000
 30
0.000000
 40
0.170000
 50
45.000000
 51
315.000000
  0
POINT
  8
Default
 62
     7
 10
13.000000
 20
-4.000000
 30
0.000000
  0
POINT
  8
Default
 62
     7
 10
10.000000
 20
-9.000000
 30
0.000000
  0
CIRCLE
  8
Default
 62
     7
  6
CONTINUOUS
 10
18.000000
 20
-15.000000
 30
0.000000
 40
0.170000
  0
CIRCLE
  8
Default
 62
     7
  6
CONTINUOUS
 10
20.000000
 20
-15.000000
 30
0.000000
 40
0.170000
  0
CIRCLE
  8
Default
 62
     7
  6
CONTINUOUS
 10
11.000000
 20
-12.000000
 30
0.000000
 40
0.170000
  0
CIRCLE
  8
Default
 62
     7
  6
CONTINUOUS
 10
9.000000
 20
-12.000000
 30
0.000000
 40
0.170000
  0
CIRCLE
  8
Default
 62
     7
  6
CONTINUOUS
 10
11.000000
 20
-14.000000
 30
0.000000
 40
0.170000
  0
CIRCLE
  8
Default
 62
     7
  6
CONTINUOUS
 10
9.000000
 20
-14.000000
 30
0.000000
 40
0.170000
  0
CIRCLE
  8
Default
 62
     7
  6
CONTINUOUS
 10
10.000000
 20
-15.000000
 30
0.000000
 40
0.170000
  0
CIRCLE
  8
Default
 62
     7
  6
CONTINUOUS
 10
9.000000
 20
-16.000000
 30
0.000000
 40
0.170000
  0
CIRCLE
  8
Default
 62
     7
  6
CONTINUOUS
 10
11.000000
 20
-16.000000
 30
0.000000
 40
0.170000
  0
CIRCLE
  8
Default
 62
     7
  6
CONTINUOUS
 10
13.000000
 20
-16.000000
 30
0.000000
 40
0.170000
  0
CIRCLE
  8
Default
 62
     7
  6
CONTINUOUS
 10
15.000000
 20
-16.000000
 30
0.000000
 40
0.170000
  0
CIRCLE
  8
Default
 62
     7
  6
CONTINUOUS
 10
17.000000
 20
-16.000000
 30
0.000000
 40
0.170000
  0
CIRCLE
  8
Default
 62
     7
  6
CONTINUOUS
 10
19.000000
 20
-16.000000
 30
0.000000
 40
0.170000
  0
CIRCLE
  8
Default
 62
     7
  6
CONTINUOUS
 10
21.000000
 20
-16.000000
 30
0.000000
 40
0.170000
  0
CIRCLE
  8
Default
 62
     7
  6
CONTINUOUS
 10
21.000000
 20
-14.000000
 30
0.000000
 40
0.170000
  0
CIRCLE
  8
Default
 62
     7
  6
CONTINUOUS
 10
19.000000
 20
-14.000000
 30
0.000000
 40
0.170000
  0
CIRCLE
  8
Default
 62
     7
  6
CONTINUOUS
 10
17.000000
 20
-14.000000
 30
0.000000
 40
0.170000
  0
CIRCLE
  8
Default
 62
     7
  6
CONTINUOUS
 10
15.000000
 20
-14.000000
 30
0.000000
 40
0.170000
  0
CIRCLE
  8
Default
 62
     7
  6
CONTINUOUS
 10
13.000000
 20
-14.000000
 30
0.000000
 40
0.170000
  0
CIRCLE
  8
Default
 62
     7
  6
CONTINUOUS
 10
12.000000
 20
-15.000000
 30
0.000000
 40
0.170000
  0
CIRCLE
  8
Default
 62
     7
  6
CONTINUOUS
 10
14.000000
 20
-15.000000
 30
0.000000
 40
0.170000
  0
CIRCLE
  8
Default
 62
     7
  6
CONTINUOUS
 10
12.000000
 20
-13.000000
 30
0.000000
 40
0.170000
  0
CIRCLE
  8
Default
 62
     7
  6
CONTINUOUS
 10
14.000000
 20
-13.000000
 30
0.000000
 40
0.170000
  0
CIRCLE
  8
Default
 62
     7
  6
CONTINUOUS
 10
16.000000
 20
-13.000000
 30
0.000000
 40
0.170000
  0
CIRCLE
  8
Default
 62
     7
  6
CONTINUOUS
 10
18.000000
 20
-13.000000
 30
0.000000
 40
0.170000
  0
CIRCLE
  8
Default
 62
     7
  6
CONTINUOUS
 10
20.000000
 20
-13.000000
 30
0.000000
 40
0.170000
  0
CIRCLE
  8
Default
 62
     7
  6
CONTINUOUS
 10
21.000000
 20
-12.000000
 30
0.000000
 40
0.170000
  0
CIRCLE
  8
Default
 62
     7
  6
CONTINUOUS
 10
19.000000
 20
-12.000000
 30
0.000000
 40
0.170000
  0
CIRCLE
  8
Default
 62
     7
  6
CONTINUOUS
 10
20.000000
 20
-11.000000
 30
0.000000
 40
0.170000
  0
CIRCLE
  8
Default
 62
     7
  6
CONTINUOUS
 10
21.000000
 20
-10.000000
 30
0.000000
 40
0.170000
  0
CIRCLE
  8
Default
 62
     7
  6
CONTINUOUS
 10
20.000000
 20
-9.000000
 30
0.000000
 40
0.170000
  0
CIRCLE
  8
Default
 62
     7
  6
CONTINUOUS
 10
19.000000
 20
-8.000000
 30
0.000000
 40
0.170000
  0
CIRCLE
  8
Default
 62
     7
  6
CONTINUOUS
 10
21.000000
 20
-8.000000
 30
0.000000
 40
0.170000
  0
CIRCLE
  8
Default
 62
     7
  6
CONTINUOUS
 10
19.000000
 20
-10.000000
 30
0.000000
 40
0.170000
  0
CIRCLE
  8
Default
 62
     7
  6
CONTINUOUS
 10
17.000000
 20
-10.000000
 30
0.000000
 40
0.170000
  0
CIRCLE
  8
Default
 62
     7
  6
CONTINUOUS
 10
18.000000
 20
-9.000000
 30
0.000000
 40
0.170000
  0
CIRCLE
  8
Default
 62
     7
  6
CONTINUOUS
 10
17.000000
 20
-8.000000
 30
0.000000
 40
0.170000
  0
CIRCLE
  8
Default
 62
     7
  6
CONTINUOUS
 10
16.000000
 20
-9.000000
 30
0.000000
 40
0.170000
  0
CIRCLE
  8
Default
 62
     7
  6
CONTINUOUS
 10
15.000000
 20
-8.000000
 30
0.000000
 40
0.170000
  0
CIRCLE
  8
Default
 62
     7
  6
CONTINUOUS
 10
14.000000
 20
-9.000000
 30
0.000000
 40
0.170000
  0
CIRCLE
  8
Default
 62
     7
  6
CONTINUOUS
 10
13.000000
 20
-10.000000
 30
0.000000
 40
0.170000
  0
CIRCLE
  8
Default
 62
     7
  6
CONTINUOUS
 10
12.000000
 20
-11.000000
 30
0.000000
 40
0.170000
  0
CIRCLE
  8
Default
 62
     7
  6
CONTINUOUS
 10
14.000000
 20
-11.000000
 30
0.000000
 40
0.170000
  0
CIRCLE
  8
Default
 62
     7
  6
CONTINUOUS
 10
15.000000
 20
-10.000000
 30
0.000000
 40
0.170000
  0
CIRCLE
  8
Default
 62
     7
  6
CONTINUOUS
 10
16.000000
 20
-11.000000
 30
0.000000
 40
0.170000
  0
CIRCLE
  8
Default
 62
     7
  6
CONTINUOUS
 10
15.000000
 20
-12.000000
 30
0.000000
 40
0.170000
  0
CIRCLE
  8
Default
 62
     7
  6
CONTINUOUS
 10
17.000000
 20
-12.000000
 30
0.000000
 40
0.170000
  0
CIRCLE
  8
Default
 62
     7
  6
CONTINUOUS
 10
18.000000
 20
-11.000000
 30
0.000000
 40
0.170000
  0
CIRCLE
  8
Default
 62
     7
  6
CONTINUOUS
 10
12.000000
 20
-9.000000
 30
0.000000
 40
0.170000
  0
CIRCLE
  8
Default
 62
     7
  6
CONTINUOUS
 10
13.000000
 20
-8.000000
 30
0.000000
 40
0.170000
  0
CIRCLE
  8
Default
 62
     7
  6
CONTINUOUS
 10
3.000000
 20
-2.000000
 30
0.000000
 40
0.170000
  0
CIRCLE
  8
Default
 62
     7
  6
CONTINUOUS
 10
7.000000
 20
-2.000000
 30
0.000000
 40
0.170000
  0
CIRCLE
  8
Default
 62
     7
  6
CONTINUOUS
 10
11.000000
 20
-2.000000
 30
0.000000
 40
0.170000
  0
CIRCLE
  8
Default
 62
     7
  6
CONTINUOUS
 10
15.000000
 20
-2.000000
 30
0.000000
 40
0.170000
  0
CIRCLE
  8
Default
 62
     7
  6
CONTINUOUS
 10
15.000000
 20
-6.000000
 30
0.000000
 40
0.170000
  0
CIRCLE
  8
Default
 62
     7
  6
CONTINUOUS
 10
13.000000
 20
-4.000000
 30
0.000000
 40
0.170000
  0
CIRCLE
  8
Default
 62
     7
  6
CONTINUOUS
 10
11.000000
 20
-6.000000
 30
0.000000
 40
0.170000
  0
CIRCLE
  8
Default
 62
     7
  6
CONTINUOUS
 10
7.000000
 20
-6.000000
 30
0.000000
 40
0.170000
  0
CIRCLE
  8
Default
 62
     7
  6
CONTINUOUS
 10
5.000000
 20
-8.000000
 30
0.000000
 40
0.170000
  0
CIRCLE
  8
Default
 62
     7
  6
CONTINUOUS
 10
1.000000
 20
-8.000000
 30
0.000000
 40
0.170000
  0
CIRCLE
  8
Default
 62
     7
  6
CONTINUOUS
 10
3.000000
 20
-6.000000
 30
0.000000
 40
0.170000
  0
CIRCLE
  8
Default
 62
     7
  6
CONTINUOUS
 10
5.000000
 20
-4.000000
 30
0.000000
 40
0.170000
  0
CIRCLE
  8
Default
 62
     7
  6
CONTINUOUS
 10
1.000000
 20
-4.000000
 30
0.000000
 40
0.170000
  0
CIRCLE
  8
Default
 62
     7
  6
CONTINUOUS
 10
9.000000
 20
-4.000000
 30
0.000000
 40
0.170000
  0
CIRCLE
  8
Default
 62
     7
  6
CONTINUOUS
 10
11.000000
 20
-8.000000
 30
0.000000
 40
0.170000
  0
CIRCLE
  8
Default
 62
     7
  6
CONTINUOUS
 10
9.000000
 20
-8.000000
 30
0.000000
 40
0.170000
  0
CIRCLE
  8
Default
 62
     7
  6
CONTINUOUS
 10
9.000000
 20
-10.000000
 30
0.000000
 40
0.170000
  0
CIRCLE
  8
Default
 62
     7
  6
CONTINUOUS
 10
10.000000
 20
-9.000000
 30
0.000000
 40
0.170000
  0
CIRCLE
  8
Default
 62
     7
  6
CONTINUOUS
 10
11.000000
 20
-10.000000
 30
0.000000
 40
0.170000
  0
CIRCLE
  8
Default
 62
     7
  6
CONTINUOUS
 10
7.000000
 20
-10.000000
 30
0.000000
 40
0.170000
  0
CIRCLE
  8
Default
 62
     7
  6
CONTINUOUS
 10
3.000000
 20
-10.000000
 30
0.000000
 40
0.170000
  0
CIRCLE
  8
Default
 62
     7
  6
CONTINUOUS
 10
1.000000
 20
-16.000000
 30
0.000000
 40
0.170000
  0
CIRCLE
  8
Default
 62
     7
  6
CONTINUOUS
 10
5.000000
 20
-16.000000
 30
0.000000
 40
0.170000
  0
CIRCLE
  8
Default
 62
     7
  6
CONTINUOUS
 10
7.000000
 20
-18.000000
 30
0.000000
 40
0.170000
  0
CIRCLE
  8
Default
 62
     7
  6
CONTINUOUS
 10
3.000000
 20
-18.000000
 30
0.000000
 40
0.170000
  0
CIRCLE
  8
Default
 62
     7
  6
CONTINUOUS
 10
1.000000
 20
-20.000000
 30
0.000000
 40
0.170000
  0
CIRCLE
  8
Default
 62
     7
  6
CONTINUOUS
 10
5.000000
 20
-20.000000
 30
0.000000
 40
0.170000
  0
CIRCLE
  8
Default
 62
     7
  6
CONTINUOUS
 10
9.000000
 20
-20.000000
 30
0.000000
 40
0.170000
  0
CIRCLE
  8
Default
 62
     7
  6
CONTINUOUS
 10
3.000000
 20
-22.000000
 30
0.000000
 40
0.170000
  0
CIRCLE
  8
Default
 62
     7
  6
CONTINUOUS
 10
7.000000
 20
-22.000000
 30
0.000000
 40
0.170000
  0
CIRCLE
  8
Default
 62
     7
  6
CONTINUOUS
 10
11.000000
 20
-18.000000
 30
0.000000
 40
0.170000
  0
CIRCLE
  8
Default
 62
     7
  6
CONTINUOUS
 10
11.000000
 20
-22.000000
 30
0.000000
 40
0.170000
  0
CIRCLE
  8
Default
 62
     7
  6
CONTINUOUS
 10
13.000000
 20
-20.000000
 30
0.000000
 40
0.170000
  0
CIRCLE
  8
Default
 62
     7
  6
CONTINUOUS
 10
15.000000
 20
-18.000000
 30
0.000000
 40
0.170000
  0
CIRCLE
  8
Default
 62
     7
  6
CONTINUOUS
 10
17.000000
 20
-20.000000
 30
0.000000
 40
0.170000
  0
CIRCLE
  8
Default
 62
     7
  6
CONTINUOUS
 10
15.000000
 20
-22.000000
 30
0.000000
 40
0.170000
  0
CIRCLE
  8
Default
 62
     7
  6
CONTINUOUS
 10
19.000000
 20
-18.000000
 30
0.000000
 40
0.170000
  0
CIRCLE
  8
Default
 62
     7
  6
CONTINUOUS
 10
21.000000
 20
-20.000000
 30
0.000000
 40
0.170000
  0
CIRCLE
  8
Default
 62
     7
  6
CONTINUOUS
 10
19.000000
 20
-22.000000
 30
0.000000
 40
0.170000
  0
CIRCLE
  8
Default
 62
     7
  6
CONTINUOUS
 10
23.000000
 20
-18.000000
 30
0.000000
 40
0.170000
  0
CIRCLE
  8
Default
 62
     7
  6
CONTINUOUS
 10
23.000000
 20
-22.000000
 30
0.000000
 40
0.170000
  0
CIRCLE
  8
Default
 62
     7
  6
CONTINUOUS
 10
25.000000
 20
-20.000000
 30
0.000000
 40
0.170000
  0
CIRCLE
  8
Default
 62
     7
  6
CONTINUOUS
 10
27.000000
 20
-18.000000
 30
0.000000
 40
0.170000
  0
CIRCLE
  8
Default
 62
     7
  6
CONTINUOUS
 10
27.000000
 20
-22.000000
 30
0.000000
 40
0.170000
  0
CIRCLE
  8
Default
 62
     7
  6
CONTINUOUS
 10
29.000000
 20
-20.000000
 30
0.000000
 40
0.170000
  0
CIRCLE
  8
Default
 62
     7
  6
CONTINUOUS
 10
31.000000
 20
-18.000000
 30
0.000000
 40
0.170000
  0
CIRCLE
  8
Default
 62
     7
  6
CONTINUOUS
 10
33.000000
 20
-20.000000
 30
0.000000
 40
0.170000
  0
CIRCLE
  8
Default
 62
     7
  6
CONTINUOUS
 10
35.000000
 20
-18.000000
 30
0.000000
 40
0.170000
  0
CIRCLE
  8
Default
 62
     7
  6
CONTINUOUS
 10
35.000000
 20
-22.000000
 30
0.000000
 40
0.170000
  0
CIRCLE
  8
Default
 62
     7
  6
CONTINUOUS
 10
31.000000
 20
-22.000000
 30
0.000000
 40
0.170000
  0
CIRCLE
  8
Default
 62
     7
  6
CONTINUOUS
 10
27.000000
 20
-10.000000
 30
0.000000
 40
0.170000
  0
CIRCLE
  8
Default
 62
     7
  6
CONTINUOUS
 10
31.000000
 20
-10.000000
 30
0.000000
 40
0.170000
  0
CIRCLE
  8
Default
 62
     7
  6
CONTINUOUS
 10
35.000000
 20
-10.000000
 30
0.000000
 40
0.170000
  0
CIRCLE
  8
Default
 62
     7
  6
CONTINUOUS
 10
35.000000
 20
-6.000000
 30
0.000000
 40
0.170000
  0
CIRCLE
  8
Default
 62
     7
  6
CONTINUOUS
 10
33.000000
 20
-4.000000
 30
0.000000
 40
0.170000
  0
CIRCLE
  8
Default
 62
     7
  6
CONTINUOUS
 10
33.000000
 20
-8.000000
 30
0.000000
 40
0.170000
  0
CIRCLE
  8
Default
 62
     7
  6
CONTINUOUS
 10
31.000000
 20
-6.000000
 30
0.000000
 40
0.170000
  0
CIRCLE
  8
Default
 62
     7
  6
CONTINUOUS
 10
29.000000
 20
-4.000000
 30
0.000000
 40
0.170000
  0
CIRCLE
  8
Default
 62
     7
  6
CONTINUOUS
 10
27.000000
 20
-6.000000
 30
0.000000
 40
0.170000
  0
CIRCLE
  8
Default
 62
     7
  6
CONTINUOUS
 10
29.000000
 20
-8.000000
 30
0.000000
 40
0.170000
  0
CIRCLE
  8
Default
 62
     7
  6
CONTINUOUS
 10
27.000000
 20
-2.000000
 30
0.000000
 40
0.170000
  0
CIRCLE
  8
Default
 62
     7
  6
CONTINUOUS
 10
31.000000
 20
-2.000000
 30
0.000000
 40
0.170000
  0
CIRCLE
  8
Default
 62
     7
  6
CONTINUOUS
 10
35.000000
 20
-2.000000
 30
0.000000
 40
0.170000
  0
CIRCLE
  8
Default
 62
     7
  6
CONTINUOUS
 10
17.000000
 20
-4.000000
 30
0.000000
 40
0.170000
  0
CIRCLE
  8
Default
 62
     7
  6
CONTINUOUS
 10
19.000000
 20
-2.000000
 30
0.000000
 40
0.170000
  0
CIRCLE
  8
Default
 62
     7
  6
CONTINUOUS
 10
21.000000
 20
-4.000000
 30
0.000000
 40
0.170000
  0
CIRCLE
  8
Default
 62
     7
  6
CONTINUOUS
 10
19.000000
 20
-6.000000
 30
0.000000
 40
0.170000
  0
CIRCLE
  8
Default
 62
     7
  6
CONTINUOUS
 10
23.000000
 20
-2.000000
 30
0.000000
 40
0.170000
  0
CIRCLE
  8
Default
 62
     7
  6
CONTINUOUS
 10
25.000000
 20
-4.000000
 30
0.000000
 40
0.170000
  0
CIRCLE
  8
Default
 62
     7
  6
CONTINUOUS
 10
23.000000
 20
-6.000000
 30
0.000000
 40
0.170000
  0
CIRCLE
  8
Default
 62
     7
  6
CONTINUOUS
 10
1.000000
 20
-12.000000
 30
0.000000
 40
0.170000
  0
CIRCLE
  8
Default
 62
     7
  6
CONTINUOUS
 10
5.000000
 20
-12.000000
 30
0.000000
 40
0.170000
  0
CIRCLE
  8
Default
 62
     7
  6
CONTINUOUS
 10
7.000000
 20
-14.000000
 30
0.000000
 40
0.170000
  0
CIRCLE
  8
Default
 62
     7
  6
CONTINUOUS
 10
3.000000
 20
-14.000000
 30
0.000000
 40
0.170000
  0
CIRCLE
  8
Default
 62
     7
  6
CONTINUOUS
 10
10.000000
 20
-11.000000
 30
0.000000
 40
0.170000
  0
CIRCLE
  8
Default
 62
     7
  6
CONTINUOUS
 10
10.000000
 20
-13.000000
 30
0.000000
 40
0.170000
  0
CIRCLE
  8
Default
 62
     7
  6
CONTINUOUS
 10
13.000000
 20
-12.000000
 30
0.000000
 40
0.170000
  0
CIRCLE
  8
Default
 62
     7
  6
CONTINUOUS
 10
16.000000
 20
-15.000000
 30
0.000000
 40
0.170000
  0
CIRCLE
  8
Default
 62
     7
  6
CONTINUOUS
 10
25.000000
 20
-16.000000
 30
0.000000
 40
0.170000
  0
CIRCLE
  8
Default
 62
     7
  6
CONTINUOUS
 10
27.000000
 20
-14.000000
 30
0.000000
 40
0.170000
  0
CIRCLE
  8
Default
 62
     7
  6
CONTINUOUS
 10
23.000000
 20
-14.000000
 30
0.000000
 40
0.170000
  0
CIRCLE
  8
Default
 62
     7
  6
CONTINUOUS
 10
29.000000
 20
-16.000000
 30
0.000000
 40
0.170000
  0
CIRCLE
  8
Default
 62
     7
  6
CONTINUOUS
 10
31.000000
 20
-14.000000
 30
0.000000
 40
0.170000
  0
CIRCLE
  8
Default
 62
     7
  6
CONTINUOUS
 10
33.000000
 20
-16.000000
 30
0.000000
 40
0.170000
  0
CIRCLE
  8
Default
 62
     7
  6
CONTINUOUS
 10
25.000000
 20
-12.000000
 30
0.000000
 40
0.170000
  0
CIRCLE
  8
Default
 62
     7
  6
CONTINUOUS
 10
29.000000
 20
-12.000000
 30
0.000000
 40
0.170000
  0
CIRCLE
  8
Default
 62
     7
  6
CONTINUOUS
 10
33.000000
 20
-12.000000
 30
0.000000
 40
0.170000
  0
CIRCLE
  8
Default
 62
     7
  6
CONTINUOUS
 10
25.000000
 20
-8.000000
 30
0.000000
 40
0.170000
  0
POINT
  8
Default
 62
     7
 10
12.624000
 20
-23.000000
 30
0.000000
  0
CIRCLE
  8
Default
 62
     7
  6
CONTINUOUS
 10
0.500000
 20
-0.250000
 30
0.000000
 40
0.080000
  0
CIRCLE
  8
Default
 62
     7
  6
CONTINUOUS
 10
5.500000
 20
-0.250000
 30
0.000000
 40
0.080000
  0
CIRCLE
  8
Default
 62
     7
  6
CONTINUOUS
 10
10.500000
 20
-0.250000
 30
0.000000
 40
0.080000
  0
CIRCLE
  8
Default
 62
     7
  6
CONTINUOUS
 10
15.500000
 20
-0.250000
 30
0.000000
 40
0.080000
  0
CIRCLE
  8
Default
 62
     7
  6
CONTINUOUS
 10
20.500000
 20
-0.250000
 30
0.000000
 40
0.080000
  0
CIRCLE
  8
Default
 62
     7
  6
CONTINUOUS
 10
25.500000
 20
-0.250000
 30
0.000000
 40
0.080000
  0
CIRCLE
  8
Default
 62
     7
  6
CONTINUOUS
 10
30.500000
 20
-0.250000
 30
0.000000
 40
0.080000
  0
CIRCLE
  8
Default
 62
     7
  6
CONTINUOUS
 10
35.500000
 20
-0.250000
 30
0.000000
 40
0.080000
  0
CIRCLE
  8
Default
 62
     7
  6
CONTINUOUS
 10
35.500000
 20
-23.750000
 30
0.000000
 40
0.080000
  0
CIRCLE
  8
Default
 62
     7
  6
CONTINUOUS
 10
30.500000
 20
-23.750000
 30
0.000000
 40
0.080000
  0
CIRCLE
  8
Default
 62
     7
  6
CONTINUOUS
 10
25.500000
 20
-23.750000
 30
0.000000
 40
0.080000
  0
CIRCLE
  8
Default
 62
     7
  6
CONTINUOUS
 10
20.500000
 20
-23.750000
 30
0.000000
 40
0.080000
  0
CIRCLE
  8
Default
 62
     7
  6
CONTINUOUS
 10
15.500000
 20
-23.750000
 30
0.000000
 40
0.080000
  0
CIRCLE
  8
Default
 62
     7
  6
CONTINUOUS
 10
10.500000
 20
-23.750000
 30
0.000000
 40
0.080000
  0
CIRCLE
  8
Default
 62
     7
  6
CONTINUOUS
 10
5.500000
 20
-23.750000
 30
0.000000
 40
0.080000
  0
CIRCLE
  8
Default
 62
     7
  6
CONTINUOUS
 10
0.500000
 20
-23.750000
 30
0.000000
 40
0.080000
  0
POINT
  8
Default
 62
     7
 10
29.000000
 20
-4.000000
 30
0.000000
  0
POINT
  8
Default
 62
     7
 10
10.000000
 20
-16.000000
 30
0.000000
  0
CIRCLE
  8
Default
 62
     7
  6
CONTINUOUS
 10
0.625000
 20
-1.000000
 30
0.000000
 40
0.150000
  0
CIRCLE
  8
Default
 62
     7
  6
CONTINUOUS
 10
12.625000
 20
-1.000000
 30
0.000000
 40
0.150000
  0
CIRCLE
  8
Default
 62
     7
  6
CONTINUOUS
 10
24.625000
 20
-1.000000
 30
0.000000
 40
0.150000
  0
CIRCLE
  8
Default
 62
     7
  6
CONTINUOUS
 10
35.375000
 20
-1.000000
 30
0.000000
 40
0.150000
  0
CIRCLE
  8
Default
 62
     7
  6
CONTINUOUS
 10
35.375000
 20
-23.000000
 30
0.000000
 40
0.150000
  0
CIRCLE
  8
Default
 62
     7
  6
CONTINUOUS
 10
24.625000
 20
-23.000000
 30
0.000000
 40
0.150000
  0
CIRCLE
  8
Default
 62
     7
  6
CONTINUOUS
 10
12.624000
 20
-23.000000
 30
0.000000
 40
0.150000
  0
CIRCLE
  8
Default
 62
     7
  6
CONTINUOUS
 10
0.625000
 20
-23.000000
 30
0.000000
 40
0.150000
  0
CIRCLE
  8
Default
 62
     7
  6
CONTINUOUS
 10
0.625000
 20
-1.000000
 30
0.000000
 40
0.250000
  0
CIRCLE
  8
Default
 62
     7
  6
CONTINUOUS
 10
12.625000
 20
-1.000000
 30
0.000000
 40
0.250000
  0
CIRCLE
  8
Default
 62
     7
  6
CONTINUOUS
 10
24.625000
 20
-1.000000
 30
0.000000
 40
0.250000
  0
CIRCLE
  8
Default
 62
     7
  6
CONTINUOUS
 10
35.375000
 20
-1.000000
 30
0.000000
 40
0.250000
  0
CIRCLE
  8
Default
 62
     7
  6
CONTINUOUS
 10
24.625000
 20
-23.000000
 30
0.000000
 40
0.250000
  0
CIRCLE
  8
Default
 62
     7
  6
CONTINUOUS
 10
0.625000
 20
-23.000000
 30
0.000000
 40
0.250000
  0
CIRCLE
  8
Default
 62
     7
  6
CONTINUOUS
 10
12.624000
 20
-23.000000
 30
0.000000
 40
0.250000
  0
CIRCLE
  8
Default
 62
     7
  6
CONTINUOUS
 10
35.375000
 20
-23.000000
 30
0.000000
 40
0.250000
  0
CIRCLE
  8
Default
 62
     7
  6
CONTINUOUS
 10
23.000000
 20
-10.000000
 30
0.000000
 40
0.170000
  0
ENDSEC
  0
EOF
